Menu Site

Партнеры сайта


Новое в каталоге статей
--



Стрела текст песни и аккорды

5`nizza Стрела


Riff 1
Е------------1---1------------------------------------1---------------------------------
B---------3----------------------------------------0--------0---------------------------
G------2------2------2-------------------------0---------0----0-------------------------
D---0-----------------------------------------------------------------------------------
A-------------------------3---3---3---3---2------------------------1---1---1---0--------
E----------------------------------------------------------------------------------------


Riff 1(2)
E------------1------------------------------------------1----------------------------------
B---------3------3---------------------------------0---------0-----------------------------
G------2------2---2----------------------------0---------0------0--------------------------
D---0--------------------------------------------------------------------------------------
A-------------------------3---3---3---3---2---------------------------1---1---1---0--------
E------------------------------------------------------------------------------------------


В конце вступления играть riff 1 (2) , не доигрывая двух последних нот
Концовка самой песни(riff2)


E------------1------------------------1------------------------1---------------------------------0---------------1---
B---------3------3---------------0---------0---------------0------------0-------------------0------0------0----2--
G------2------2---2---------0----------0------0------0------------0-------0-----------0---------------0-------3--
D---0--------------------------------------------------------------------------------------------------------------3--
A-------------------------3--------------------------2-------------------------------1-----------------------------1-
E--------------------------------------------------------------------------------------------------------------------1-



Вступление:
Riff 1, riff 1(2), riff 1, riff1 (2)


Во время куплета riff 1 5x и riff 1 + аккорд H#m
Во время припева riff 1 4x
Во время 2 куплета riff 1 5x и riff2


Моя стрела опоздала
Подарить тебе ты прости
Мне бы подрасти
боюсь сойти на уууу
Да, я снова на краю
Время отдаю-ю - не хватает пустоты
Все, что исчезло друг
Только звук упавших век
Двери стук- свет развеет
Ночь уйдет, я войду из пустоты
Это ты, просто ты была всегда.


Моя волна ожиданием полна
Моя вина √ глубина,
Мокрая стена передо мною ночь
Что она не сможет мне помочь- слова
Кругом голова уходит прочь
все, о чем не нужно знать
Ни тебе, ни мне вне нас
Миллионы глаз, миллионы фраз
Пусть нам осталась грусть
Но она одна бездна

Форма входа
Логин:
Пароль:


News Calendar



Яндекс цитирования




5nizza 2005 © 2019